ISO-10303-21;
HEADER;
FILE_DESCRIPTION (( 'STEP AP203' ),
    '1' );
FILE_NAME ('Q-OZHWP-R2-25.4-488-M.STEP',
    '2020-12-22T09:19:04',
    ( '' ),
    ( '' ),
    'SwSTEP 2.0',
    'SolidWorks 2020',
    '' );
FILE_SCHEMA (( 'CONFIG_CONTROL_DESIGN' ));
ENDSEC;

DATA;
#1 = PERSON_AND_ORGANIZATION_ROLE ( 'classification_officer' ) ;
#2 = APPROVAL_STATUS ( 'not_yet_approved' ) ;
#3 = CC_DESIGN_DATE_AND_TIME_ASSIGNMENT ( #59, #29, ( #24 ) ) ;
#4 = ADVANCED_FACE ( 'NONE', ( #66 ), #117, .F. ) ;
#5 = AXIS2_PLACEMENT_3D ( 'NONE', #171, #147, #94 ) ;
#6 = VERTEX_POINT ( 'NONE', #170 ) ;
#7 = ORIENTED_EDGE ( 'NONE', *, *, #38, .F. ) ;
#8 = EDGE_LOOP ( 'NONE', ( #168, #75, #91, #7 ) ) ;
#9 =( NAMED_UNIT ( * ) SI_UNIT ( $, .STERADIAN. ) SOLID_ANGLE_UNIT ( ) );
#10 = LOCAL_TIME ( 17, 19, 4.000000000000000000, #139 ) ;
#11 = CARTESIAN_POINT ( 'NONE',  ( -3.000000000000001776, 0.000000000000000000, 0.000000000000000000 ) ) ;
#12 = DIRECTION ( 'NONE',  ( 1.000000000000000000, 0.000000000000000000, 0.000000000000000000 ) ) ;
#13 = PERSON_AND_ORGANIZATION_ROLE ( 'design_supplier' ) ;
#14 = CALENDAR_DATE ( 2020, 22, 12 ) ;
#15 = CC_DESIGN_PERSON_AND_ORGANIZATION_ASSIGNMENT ( #140, #13, ( #172 ) ) ;
#16 = SHAPE_DEFINITION_REPRESENTATION ( #165, #132 ) ;
#17 = DATE_TIME_ROLE ( 'creation_date' ) ;
#18 = CIRCLE ( 'NONE', #107, 12.69999999999999929 ) ;
#19 = DIRECTION ( 'NONE',  ( 1.000000000000000000, 0.000000000000000000, 0.000000000000000000 ) ) ;
#20 = APPROVAL_PERSON_ORGANIZATION ( #141, #131, #101 ) ;
#21 = ORIENTED_EDGE ( 'NONE', *, *, #72, .T. ) ;
#22 = ORIENTED_EDGE ( 'NONE', *, *, #105, .F. ) ;
#23 = EDGE_LOOP ( 'NONE', ( #21, #76 ) ) ;
#24 = SECURITY_CLASSIFICATION ( '', '', #48 ) ;
#25 = DIRECTION ( 'NONE',  ( -0.000000000000000000, 0.000000000000000000, 1.000000000000000000 ) ) ;
#26 = CC_DESIGN_PERSON_AND_ORGANIZATION_ASSIGNMENT ( #49, #122, ( #71 ) ) ;
#27 = LOCAL_TIME ( 17, 19, 4.000000000000000000, #153 ) ;
#28 = CYLINDRICAL_SURFACE ( 'NONE', #40, 12.69999999999999929 ) ;
#29 = DATE_TIME_ROLE ( 'classification_date' ) ;
#30 = CIRCLE ( 'NONE', #56, 12.69999999999999929 ) ;
#31 = PERSON_AND_ORGANIZATION ( #68, #98 ) ;
#32 = APPROVAL ( #112, 'UNSPECIFIED' ) ;
#33 = CALENDAR_DATE ( 2020, 22, 12 ) ;
#34 = PERSON_AND_ORGANIZATION ( #68, #98 ) ;
#35 = DIRECTION ( 'NONE',  ( 0.000000000000000000, 0.000000000000000000, 1.000000000000000000 ) ) ;
#36 = LOCAL_TIME ( 17, 19, 4.000000000000000000, #152 ) ;
#37 = DIRECTION ( 'NONE',  ( -1.000000000000000000, -0.000000000000000000, -0.000000000000000000 ) ) ;
#38 = EDGE_CURVE ( 'NONE', #6, #50, #110, .T. ) ;
#39 = APPLICATION_PROTOCOL_DEFINITION ( 'international standard', 'config_control_design', 1994, #150 ) ;
#40 = AXIS2_PLACEMENT_3D ( 'NONE', #173, #41, #106 ) ;
#41 = DIRECTION ( 'NONE',  ( -1.000000000000000000, -0.000000000000000000, -0.000000000000000000 ) ) ;
#42 = APPLICATION_PROTOCOL_DEFINITION ( 'international standard', 'config_control_design', 1994, #155 ) ;
#43 = CALENDAR_DATE ( 2020, 22, 12 ) ;
#44 = CC_DESIGN_DATE_AND_TIME_ASSIGNMENT ( #148, #17, ( #47 ) ) ;
#45 = CC_DESIGN_APPROVAL ( #145, ( #24 ) ) ;
#46 = COORDINATED_UNIVERSAL_TIME_OFFSET ( 8, 0, .AHEAD. ) ;
#47 = PRODUCT_DEFINITION ( 'UNKNOWN', '', #172, #135 ) ;
#48 = SECURITY_CLASSIFICATION_LEVEL ( 'unclassified' ) ;
#49 = PERSON_AND_ORGANIZATION ( #68, #98 ) ;
#50 = VERTEX_POINT ( 'NONE', #160 ) ;
#51 = ORIENTED_EDGE ( 'NONE', *, *, #130, .F. ) ;
#52 = LOCAL_TIME ( 17, 19, 4.000000000000000000, #46 ) ;
#53 = EDGE_LOOP ( 'NONE', ( #22, #167, #77, #166 ) ) ;
#54 = DIRECTION ( 'NONE',  ( -1.000000000000000000, 0.000000000000000000, -0.000000000000000000 ) ) ;
#55 = CYLINDRICAL_SURFACE ( 'NONE', #154, 12.69999999999999929 ) ;
#56 = AXIS2_PLACEMENT_3D ( 'NONE', #143, #108, #70 ) ;
#57 = CARTESIAN_POINT ( 'NONE',  ( -3.000000000000000000, 1.555301434917138433E-15, -12.69999999999999929 ) ) ;
#58 = FACE_OUTER_BOUND ( 'NONE', #8, .T. ) ;
#59 = DATE_AND_TIME ( #43, #52 ) ;
#60 = CALENDAR_DATE ( 2020, 22, 12 ) ;
#61 = EDGE_CURVE ( 'NONE', #156, #50, #119, .T. ) ;
#62 = VECTOR ( 'NONE', #134, 1000.000000000000000 ) ;
#63 = APPROVAL_ROLE ( '' ) ;
#64 = APPROVAL_ROLE ( '' ) ;
#65 = ORIENTED_EDGE ( 'NONE', *, *, #83, .F. ) ;
#66 = FACE_OUTER_BOUND ( 'NONE', #90, .T. ) ;
#67 = DIRECTION ( 'NONE',  ( 0.000000000000000000, 0.000000000000000000, -1.000000000000000000 ) ) ;
#68 = PERSON ( 'UNSPECIFIED', 'UNSPECIFIED', 'UNSPECIFIED', ('UNSPECIFIED'), ('UNSPECIFIED'), ('UNSPECIFIED') ) ;
#69 =( LENGTH_UNIT ( ) NAMED_UNIT ( * ) SI_UNIT ( .MILLI., .METRE. ) );
#70 = DIRECTION ( 'NONE',  ( 0.000000000000000000, 0.000000000000000000, 1.000000000000000000 ) ) ;
#71 = PRODUCT ( 'Q-OZHWP-R2-25.4-488-M', 'Q-OZHWP-R2-25.4-488-M', '', ( #85 ) ) ;
#72 = EDGE_CURVE ( 'NONE', #50, #156, #163, .T. ) ;
#73 = APPROVAL_DATE_TIME ( #84, #145 ) ;
#74 = AXIS2_PLACEMENT_3D ( 'NONE', #111, #126, #19 ) ;
#75 = ORIENTED_EDGE ( 'NONE', *, *, #105, .T. ) ;
#76 = ORIENTED_EDGE ( 'NONE', *, *, #61, .T. ) ;
#77 = ORIENTED_EDGE ( 'NONE', *, *, #38, .T. ) ;
#78 = CARTESIAN_POINT ( 'NONE',  ( -3.000000000000000000, 0.000000000000000000, 12.69999999999999929 ) ) ;
#79 = LINE ( 'NONE', #57, #93 ) ;
#80 = CARTESIAN_POINT ( 'NONE',  ( 3.000000000000001776, 1.555301434917138433E-15, -12.69999999999999929 ) ) ;
#81 = CARTESIAN_POINT ( 'NONE',  ( -3.000000000000000000, 0.000000000000000000, 0.000000000000000000 ) ) ;
#82 = PERSON_AND_ORGANIZATION ( #68, #98 ) ;
#83 = EDGE_CURVE ( 'NONE', #6, #92, #18, .T. ) ;
#84 = DATE_AND_TIME ( #33, #36 ) ;
#85 = MECHANICAL_CONTEXT ( 'NONE', #150, 'mechanical' ) ;
#86 = PERSON_AND_ORGANIZATION ( #68, #98 ) ;
#87 = AXIS2_PLACEMENT_3D ( 'NONE', #11, #99, #35 ) ;
#88 = CALENDAR_DATE ( 2020, 22, 12 ) ;
#89 =( GEOMETRIC_REPRESENTATION_CONTEXT ( 3 ) GLOBAL_UNCERTAINTY_ASSIGNED_CONTEXT ( ( #95 ) ) GLOBAL_UNIT_ASSIGNED_CONTEXT ( ( #69, #144, #9 ) ) REPRESENTATION_CONTEXT ( 'NONE', 'WORKASPACE' ) );
#90 = EDGE_LOOP ( 'NONE', ( #65, #51 ) ) ;
#91 = ORIENTED_EDGE ( 'NONE', *, *, #72, .F. ) ;
#92 = VERTEX_POINT ( 'NONE', #80 ) ;
#93 = VECTOR ( 'NONE', #97, 1000.000000000000000 ) ;
#94 = DIRECTION ( 'NONE',  ( 0.000000000000000000, 0.000000000000000000, 1.000000000000000000 ) ) ;
#95 = UNCERTAINTY_MEASURE_WITH_UNIT (LENGTH_MEASURE( 1.000000000000000082E-05 ), #69, 'distance_accuracy_value', 'NONE');
#96 = DIRECTION ( 'NONE',  ( 0.000000000000000000, 0.000000000000000000, 1.000000000000000000 ) ) ;
#97 = DIRECTION ( 'NONE',  ( -1.000000000000000000, -0.000000000000000000, -0.000000000000000000 ) ) ;
#98 = ORGANIZATION ( 'UNSPECIFIED', 'UNSPECIFIED', '' ) ;
#99 = DIRECTION ( 'NONE',  ( -1.000000000000000000, -0.000000000000000000, -0.000000000000000000 ) ) ;
#100 = DIRECTION ( 'NONE',  ( 0.000000000000000000, 0.000000000000000000, 1.000000000000000000 ) ) ;
#101 = APPROVAL_ROLE ( '' ) ;
#102 = APPROVAL_PERSON_ORGANIZATION ( #86, #32, #64 ) ;
#103 = APPROVAL_DATE_TIME ( #113, #32 ) ;
#104 = ADVANCED_FACE ( 'NONE', ( #58 ), #28, .T. ) ;
#105 = EDGE_CURVE ( 'NONE', #92, #156, #79, .T. ) ;
#106 = DIRECTION ( 'NONE',  ( 0.000000000000000000, 0.000000000000000000, 1.000000000000000000 ) ) ;
#107 = AXIS2_PLACEMENT_3D ( 'NONE', #109, #158, #100 ) ;
#108 = DIRECTION ( 'NONE',  ( -1.000000000000000000, -0.000000000000000000, -0.000000000000000000 ) ) ;
#109 = CARTESIAN_POINT ( 'NONE',  ( 3.000000000000001776, 0.000000000000000000, 0.000000000000000000 ) ) ;
#110 = LINE ( 'NONE', #78, #62 ) ;
#111 = CARTESIAN_POINT ( 'NONE',  ( 0.000000000000000000, 0.000000000000000000, 0.000000000000000000 ) ) ;
#112 = APPROVAL_STATUS ( 'not_yet_approved' ) ;
#113 = DATE_AND_TIME ( #14, #27 ) ;
#114 = COORDINATED_UNIVERSAL_TIME_OFFSET ( 8, 0, .AHEAD. ) ;
#115 = ADVANCED_FACE ( 'NONE', ( #146 ), #55, .T. ) ;
#116 = CC_DESIGN_PERSON_AND_ORGANIZATION_ASSIGNMENT ( #123, #162, ( #172 ) ) ;
#117 = PLANE ( 'NONE',  #175 ) ;
#118 = CARTESIAN_POINT ( 'NONE',  ( -3.000000000000000888, 12.69999999999999929, 0.000000000000000000 ) ) ;
#119 = CIRCLE ( 'NONE', #87, 12.69999999999999929 ) ;
#120 = CARTESIAN_POINT ( 'NONE',  ( 3.000000000000000888, 12.69999999999999929, 0.000000000000000000 ) ) ;
#121 = APPROVAL_PERSON_ORGANIZATION ( #82, #145, #63 ) ;
#122 = PERSON_AND_ORGANIZATION_ROLE ( 'design_owner' ) ;
#123 = PERSON_AND_ORGANIZATION ( #68, #98 ) ;
#124 = CC_DESIGN_PERSON_AND_ORGANIZATION_ASSIGNMENT ( #34, #1, ( #24 ) ) ;
#125 = DATE_AND_TIME ( #88, #10 ) ;
#126 = DIRECTION ( 'NONE',  ( 0.000000000000000000, 0.000000000000000000, 1.000000000000000000 ) ) ;
#127 = AXIS2_PLACEMENT_3D ( 'NONE', #118, #12, #67 ) ;
#128 = ADVANCED_FACE ( 'NONE', ( #137 ), #136, .F. ) ;
#129 = CLOSED_SHELL ( 'NONE', ( #104, #115, #4, #128 ) ) ;
#130 = EDGE_CURVE ( 'NONE', #92, #6, #30, .T. ) ;
#131 = APPROVAL ( #164, 'UNSPECIFIED' ) ;
#132 = ADVANCED_BREP_SHAPE_REPRESENTATION ( 'Q-OZHWP-R2-25.4-488-M', ( #174, #74 ), #89 ) ;
#133 = PRODUCT_RELATED_PRODUCT_CATEGORY ( 'detail', '', ( #71 ) ) ;
#134 = DIRECTION ( 'NONE',  ( -1.000000000000000000, -0.000000000000000000, -0.000000000000000000 ) ) ;
#135 = DESIGN_CONTEXT ( 'detailed design', #155, 'design' ) ;
#136 = PLANE ( 'NONE',  #127 ) ;
#137 = FACE_OUTER_BOUND ( 'NONE', #23, .T. ) ;
#138 = APPROVAL_DATE_TIME ( #125, #131 ) ;
#139 = COORDINATED_UNIVERSAL_TIME_OFFSET ( 8, 0, .AHEAD. ) ;
#140 = PERSON_AND_ORGANIZATION ( #68, #98 ) ;
#141 = PERSON_AND_ORGANIZATION ( #68, #98 ) ;
#142 = CC_DESIGN_SECURITY_CLASSIFICATION ( #24, ( #172 ) ) ;
#143 = CARTESIAN_POINT ( 'NONE',  ( 3.000000000000001776, 0.000000000000000000, 0.000000000000000000 ) ) ;
#144 =( NAMED_UNIT ( * ) PLANE_ANGLE_UNIT ( ) SI_UNIT ( $, .RADIAN. ) );
#145 = APPROVAL ( #2, 'UNSPECIFIED' ) ;
#146 = FACE_OUTER_BOUND ( 'NONE', #53, .T. ) ;
#147 = DIRECTION ( 'NONE',  ( -1.000000000000000000, -0.000000000000000000, -0.000000000000000000 ) ) ;
#148 = DATE_AND_TIME ( #60, #169 ) ;
#149 = CC_DESIGN_APPROVAL ( #32, ( #47 ) ) ;
#150 = APPLICATION_CONTEXT ( 'configuration controlled 3d designs of mechanical parts and assemblies' ) ;
#151 = CC_DESIGN_PERSON_AND_ORGANIZATION_ASSIGNMENT ( #31, #161, ( #47 ) ) ;
#152 = COORDINATED_UNIVERSAL_TIME_OFFSET ( 8, 0, .AHEAD. ) ;
#153 = COORDINATED_UNIVERSAL_TIME_OFFSET ( 8, 0, .AHEAD. ) ;
#154 = AXIS2_PLACEMENT_3D ( 'NONE', #81, #37, #96 ) ;
#155 = APPLICATION_CONTEXT ( 'configuration controlled 3d designs of mechanical parts and assemblies' ) ;
#156 = VERTEX_POINT ( 'NONE', #157 ) ;
#157 = CARTESIAN_POINT ( 'NONE',  ( -3.000000000000001776, 1.555301434917138433E-15, -12.69999999999999929 ) ) ;
#158 = DIRECTION ( 'NONE',  ( -1.000000000000000000, -0.000000000000000000, -0.000000000000000000 ) ) ;
#159 = CC_DESIGN_APPROVAL ( #131, ( #172 ) ) ;
#160 = CARTESIAN_POINT ( 'NONE',  ( -3.000000000000001776, 0.000000000000000000, 12.69999999999999929 ) ) ;
#161 = PERSON_AND_ORGANIZATION_ROLE ( 'creator' ) ;
#162 = PERSON_AND_ORGANIZATION_ROLE ( 'creator' ) ;
#163 = CIRCLE ( 'NONE', #5, 12.69999999999999929 ) ;
#164 = APPROVAL_STATUS ( 'not_yet_approved' ) ;
#165 = PRODUCT_DEFINITION_SHAPE ( 'NONE', 'NONE',  #47 ) ;
#166 = ORIENTED_EDGE ( 'NONE', *, *, #61, .F. ) ;
#167 = ORIENTED_EDGE ( 'NONE', *, *, #130, .T. ) ;
#168 = ORIENTED_EDGE ( 'NONE', *, *, #83, .T. ) ;
#169 = LOCAL_TIME ( 17, 19, 4.000000000000000000, #114 ) ;
#170 = CARTESIAN_POINT ( 'NONE',  ( 3.000000000000001776, 0.000000000000000000, 12.69999999999999929 ) ) ;
#171 = CARTESIAN_POINT ( 'NONE',  ( -3.000000000000001776, 0.000000000000000000, 0.000000000000000000 ) ) ;
#172 = PRODUCT_DEFINITION_FORMATION_WITH_SPECIFIED_SOURCE ( 'ANY', '', #71, .NOT_KNOWN. ) ;
#173 = CARTESIAN_POINT ( 'NONE',  ( -3.000000000000000000, 0.000000000000000000, 0.000000000000000000 ) ) ;
#174 = MANIFOLD_SOLID_BREP ( 'Ðý×', #129 ) ;
#175 = AXIS2_PLACEMENT_3D ( 'NONE', #120, #54, #25 ) ;
ENDSEC;
END-ISO-10303-21;
